www.blog-zone.info

Artist: L'Arc~en~Ciel

Intro:
A B G#m C#m
A B E
A B G#m C#m
A B E

|-------7/19~---------------19~-------------19~-------19/21---19--19-----|
|-------------------16--17----------16--17---------------------------------------|
|--------------------------------------------------------------------------------------|
|--------------------------------------------------------------------------------------|
|--------------------------------------------------------------------------------------|
|--------------------------------------------------------------------------------------|

|------------19~-----24--24---23--23---19--19--19-----16--16~---|
|--16--17--------------------------------------------------------------------|
|-------------------------------------------------------------------------------|
|-------------------------------------------------------------------------------|
|-------------------------------------------------------------------------------|
|-------------------------------------------------------------------------------|

E A
Atsukunatta gin no metariku hatto
C#m B A B
Doukasen ni hi o tsukete ageru
E A
Fushigi na hodo hai na kibun sa
C#m B A B
Suna bokori o maki agete yukou

A B G#m C#m
Himei o majirase bousou suru kodou
F#m B
Me no mae ni wa misairu no ame

A B G#m C#m
A B E

E A
Adorenarin zutto nagashite
C#m B A B
Boku no hou ga obahito shisou
E A
Bakuhatsu shite hai ni natte mo
C#m B A B
Kono mama dato waratteru ne kitto

A B G#m C#m
Machi o oikoshite kono yo no hate made
F#m G#m A B
Butto bashite shinjuu shiyou saa te o nobashite
Reff:
E A
Chiheisen ni todoku you ni
E A B
Genkai made furikitte kure woh
G#m A
Crash into the rolling morning
G#m C#m F#m
Flash i'm in the coolest driver's high
B
Saikou no finaare o yeah

Solo:
A B G#m C#m
A B E
A B G#m C#m
A B E

A B
Mou kazoeru kurai de
G#m C#m
Bokura wa kie usete
F#m G#m C#m
Makura na asa ga kuru ne
A B G#m C#m F#m B
Oki ni iri no fuku ni saa kigareta nara Kake dashite

Reff 2:
E A
Akireru hodo koe o agete
E A B
Taikiken o toppu shiyou ze woh
G#m A
Crash into the rolling morning
G#m C#m F#m
Flash i'm in the coolest driver's high
B
Kagame no tsubasa de

E A
Kake nukete yo jikan gire made
E A B
Umare tsuki no supido kyou nano sa woh
G#m A
Crash into the rolling morning
G#m C#m F#m
Flash I'm in the coolest driver's high
B
Raise de mata aou yeah

A B G#m C#m
A B E
A B G#m C#m
A B E

Comments (0)