www.blog-zone.info

Artist: L'Arc~en~Ciel

Intro:
Em C D G C 3x

Em C D
Nee konna katachi no deai shika
G C
nakatta no! kanashii ne
Em C D
Anata ni shindemo ayamete
G C
hoshiku mo nai onegai
Am D G C
Unmei sae nomikomare
Am Bm Em
shizumisou na umi e to

Reff 1:
Em C G D
Negai yo kaze ni notte yoake no kane wo narase yo
Em C G D
Tori no you ni My wishes over their airspace
Em C G D
Musuu no nami wo koe asu e tachimukau anata wo
Em C G D
Mamoritamae My life I trade it for your pain

Am Bm7-5 Cadd9
Arasoi yo tomare!

Em C D
Nee hito wa doushite kurikaeshi
G C
ayamachi wo kasaneteku?
Em C D
Shinka shinai dare ni mo nagareru
G C
kono chi ga daikirai
Am D G C
Honnou de sabakiau
Am Bm Em
dare no demo nai daichi de

Reff 2:
Em C G D
Umiwataru mirai ga kita nara kusabana mo heiki ni
Em C G D
Yadoru darou My wishes over their airspace
Em C G D
Dareka yuriokoshite warui yume kara samashite yo
Em C G D
Kanau no nara My life I trade it for your pain
Am Bm7-5 Cadd9
Dore dake inoreba
Am Bm7-5 Cadd9
ten ni todoku?

Solo:
G Em Bm 2x

|--15/---10~---8~----7~------------------------------5/10~---8~----7~---------------------------10/12--12/16/13-----|
|-------------------------------10~----8/12---7~------------------------------10~----8/12---7~-------------------------------|
|-----------------------------------------------------------------------------------------------------------------------------------------|
|-----------------------------------------------------------------------------------------------------------------------------------------|
|-----------------------------------------------------------------------------------------------------------------------------------------|
|-----------------------------------------------------------------------------------------------------------------------------------------|

|---10~---8~----7~--------------------------------------------------------|
|------------------------10~----8/12---7~------7/10~---10/12~-----|
|------------------------------------------------------------------------------|
|------------------------------------------------------------------------------|
|------------------------------------------------------------------------------|
|------------------------------------------------------------------------------|

G Em Bm
Ima asayake ga unabara to
Am Bm
watashi wo utsusu

*Back to reff 1:

Em C G D
Furimukazu habatake
Em C G D
Kono omoi wo hakonde ano sora wo tondeku
Am Bm7-5 Cadd9
Mirai wa dare ni mo
Am Bm7-5 Cadd9
Uchiotosenai

Comments (0)