www.blog-zone.info

Artist: Nagai Masato

Intro: Am

Gitar 1:
|------------------------------------------------------------------------------------------------------------------|
|------------------------------------------------------------------------------------------------------------------|
|------------------------------------------------------------------------------------------------------------------|
|-----------------------------------------------------------------------------------------------------------5~----|
|---/0---2---3---0---6---5---0---2---3---2---6~-----0---2---3---0---6---5---0---2---3---2---------|
|------------------------------------------------------------------------------------------------------------------|

Gitar 2:
|------------------------------------------------------------------11~-------------------------------------------|
|----9/10--------------------9/10------------------9---10---------------------------------------------------|
|--------------7---9---11-------------7---9---11-------------------------------------------------------------|
|------------------------------------------------------------------------------------------------------------------|
|------------------------------------------------------------------------------------------------------------------|
|------------------------------------------------------------------------------------------------------------------|

Am C D E
Mantan na ENERUGII wa ikiba o nakushite komatteru ze
Am C D E
Dare ka ga chotto yurasu dake de taikutsu na haretsu suru ze
D# D
I Ride, White Line no ue o OH, OH, OH
D# D
Sit down shinrai shiteru basho de OH, OH, OH
D# A# G
Mayotteru ma ni yukeru ze!

Reff:
C G Am F
Hitori ni hitotsu zutsu moraeru jiyuu to jounetsu o te ni
C G F G
Kagayaku tame ni umarete kita bokura no tabi wa tsuzuku
C G Am F
Futashika na nichijou o sasaeru kirifuda omae no Soul
C G F
Best na seichou wa umidasu yo tomaranai WILD DRIVE
G
Bokura wa mada shizuka ni tobira o tataiteru
Am

Am C D E
Will wa Beat o sagashite narifuri kamawazu ni yuku
Am C D E
Subete no Mighty na kaze tayasuku kechirashite Fly
D# D
Free ni ikiru koto no imi o OH, OH, OH
D# D
Greed ni me o fuse te o fureba OH, OH, OH
D# A# G
Stand up sono toki da ze

*back to reff

Intro: Am

D# D
Chikyuu wa itazura ni daichi o OH, OH, OH
D# D
Furuwase choushi ni norisugite OH, OH, OH
D# A# G
Atto iu ma ni yukina yo

C G Am F
Hitori ni hitotsu zutsu moraeru jiyuu to jounetsu o te ni
C G F
Kagayaku tame ni umarete kita bokura no tabi wa tsuzuku

*back to reff

Tobira o tataiteru
WILD DRIVE WILD DRIVE

Comments (2)

On May 14, 2013 at 2:12 AM , Anonymous said...

thx :)

 
On May 15, 2013 at 1:55 PM , Vicky Arkenemy said...

^^