www.blog-zone.info

Artist: Oystars

Intro:
F A# C 5x

|-------------------------------------------------------------------------------------------------------------------------------------------|
|-------------------------------------------------------------------------------------------------------------------------------------------|
|------5~--7--5--5--7--5--3------------------------5--5--5---5--3-------------------------5--5--5~--7--5--3--5~--3---------|
|--3~----------------------------7--5~--3--5~--3~--------------------7--5~--3--5~--3~----------------------------------7--5--|
|-------------------------------------------------------------------------------------------------------------------------------------------|
|-------------------------------------------------------------------------------------------------------------------------------------------|

|-----------------------------------------------------------------------------|
|-----------------------------------------------------------------------------|
|------5--5--5---5--3------------------------5--5--5~--7--5--3--5~--|
|--3~--------------------7--5~--3--5~--3~------------------------------|
|-----------------------------------------------------------------------------|
|-----------------------------------------------------------------------------|


F A# C
Mezamashi ni okosare
F A# C
Sukejuuru wo konashi
F A# C
Toki ni egao tsukuri
F A# C
Nokoru wadakamari

Am Dm
Koi mo yume mo tetsugaku de
Am Dm
Itsu mo kotae wa nai kedo
G Am A# C A# Am G
Koin hajiku you ni arukidasou

Reff:
F Am
Nanka shiawase chotto shiawase
Dm A# C
Kanjiru toki koso shiawase no hajimari
F Am
Nanka yukesou umaku yukesou
Dm A# C
Fumidasu ippo de subete kaete yukeru ne

F A# C 4x

F A# C
Sekai ga abunai to
F A# C
Nyuusu ga wameki tate
F A# C
Toki ni namida-nagashi
F A# C
Dekiru koto mo naku

Am Dm
Omoigakezu toori ame
Am Dm
Yake ni kokoro ga sawaida
G Am A# C A# Am G
Kimi no uso ga boku ni hitotsu bareta

Reff 2:
F Am
Nanka tameiki fukaku tameiki
Dm A# C
Wazuka na ochikomi jinsei wo korogasu
F Am
Nanka dame ka mo zenbu dame ka mo
Dm A# Am
Mienai haadoru umaku wa susumenai ne ...

Dm C 4x
A# C 4x

Am Dm
Kitto jibun shidai da ne
Am Dm
Sou sa kantan na koto sa
G Am A# C A# Am G
Kaze ni ashita kiite mireba ii sa

Reff 3:
F Am
Nanka shiawase chotto shiawase
Dm A# C
Kanjiru toki koso ichiban no shiawase
F Am
Nanka yukesou umaku yukesou
Dm A# C
Sou iu mon da ne ashita mo shiawase da ne

F A# C 4x
F

Comments (0)